Lyric and Chord Sum41 - Screming Bloody Murder

Lyric, Kunci gitar, Chords Guitar, Kord Gitar Sum41 - Screming Bloody Murder :

Verse 1: Piano
Cm G Ab Eb
I'm not quite myself these days
Gm Ab
Guess we all come undone
Eb Bb
Time to time in different ways
Cm G Ab Eb
Well I have myself to blame
Gm Ab
Guess I don't understand
Eb Gm(hold)
I need help in many ways


Stevo: Drumbeats

Tom:
e|-----------------------------------------------------------------|
B|-----------------------------------------------------------------|
G|-----------------------------------------------------------------|
D|-6-5---5-----6-5---5-----6-5---5-----3-5-----5-6-----6-8-----5---| x3
A|-----3---3-3-----3---3-3-----3---3-3-----3-3-----3-3-----3-3---3-|
E|-----------------------------------------------------------------|

e|-------------------------------|
B|-------------------------------|
G|-------------------------------|
D|-6-5---5-----6-5---5-----6-5---|
A|-----3---3-3-----3---3-3-----3-|
E|-------------------------------|


Deryck: While doing Tom's Riff
Eb Fm Cm Ab
e|-----------------|-----------------|-----------------|-----------------|
B|-----------------|-----------------|-----------------|-----------------|
G|-8-8-8-8-8-8-8-8-|-----------------|-5-5-5-5-5-5-5-5-|-----------------|
D|-8-8-8-8-8-8-8-8-|-3-3-3-3-3-3-3-3-|-5-5-5-5-5-5-5-5-|-6-6-6-6-6-6-6-6-| x2
A|-6-6-6-6-6-6-6-6-|-3-3-3-3-3-3-3-3-|-3-3-3-3-3-3-3-3-|-6-6-6-6-6-6-6-6-|
E|-----------------|-1-1-1-1-1-1-1-1-|-----------------|-4-4-4-4-4-4-4-4-|

Cone:
Eb Fm Cm Ab
G|-----------------|-----------------|-----------------|-----------------|
D|-----------------|-----------------|-----------------|-----------------| x2
A|-6-6-6-6-6-6-6-6-|-----------------|-3-3-3-3-3-3-3-3-|-----------------|
E|-----------------|-1-1-1-1-1-1-1-1-|-----------------|-4-4-4-4-4-4-4-4-|


Verse 2:
Cm Ab
God's got a plan for me
Well I'm gonna
Eb
tell you one thing
I don't got the
Gm G/B Cm
patientes or the time
Ab Eb Gm Cm Ab Eb Gm
What can I say I'm no an-gel
Eb Bb Ab Gm
I'm not forsa-ken
G/B
But I can bleed


Chorus 1:
Eb Fm Cm
Tear me open I believe
Ab Eb
God will set you up to bleed
Fm Cm
And no one can deceive
Ab
What is meant to be and
Eb Fm
Bloody murder we will scream


Verse 3:
Cm Ab
Well I guess it's time for me
Eb
Tell me what I'm left to believe in
Cause I don't know the
Gm G/B Cm
concept of the pain
Ab Eb Gm Cm
I don't want the faith
Gm Eb Ab
I'll just lose it
Cm Bb Ab Gm
I can prove it
G/B
Watch me bleed


Chorus 2:
Eb Fm Cm
Tear me open I believe
Ab Eb
God will set you up to bleed
Fm Cm
And no one can deceive
Ab
What is meant to be and
Eb Fm Cm
Bloody murder we will scream
Ab
God will set you up to
Eb G/B
Tear me open


Interlude: Cm--Cm--Cm---|Gm-G#
Cm--Cm--Cm--G-----------|Gm-Fm
Cm--Cm--Cm--Eb----------|


Guitar Solo:

Deryck:
Eb--Gm--G/B--G#--Cm--Gm--G/B--G#-----|
Eb--Fm--Cm--G#m--Cm--G/B--Bb--G#-----|

Tom: Solo
e|-3-3-----3-3-----1-1-----1-1----1/3--1/3--3p1---|
B|-----4-4-----4-4-----3-3-----3----------------4-|
G|------------------------------------------------|
D|------------------------------------------------|
A|------------------------------------------------|
E|------------------------------------------------|

e|-3---1-----8----8----8-|
B|---------8----8----8---|
G|-----------------------|
D|-----------------------|
A|-----------------------|
E|-----------------------|

e|-11-11-11-11-10-10-10-10-8-8-8-8-------------|
B|---------------------------------11-11-11-11-|
G|---------------------------------------------|
D|---------------------------------------------|
A|---------------------------------------------|
E|---------------------------------------------|

e|-8-8-8-8----------------------------------------------------|
B|---------11-11-11-11-8-8-8-8-11-11-11-11--8--8------8-------|
G|-----------------------------------------------8-10----8----|
D|----------------------------------------------------------9-|
A|------------------------------------------------------------|
E|------------------------------------------------------------|

e|-8-8-8-8-8-8-8-8-8-8-8-8-8-8-8-8-----------|
B|-------------------------------------------|
G|-------------------------------------------|
D|-------------------------------------------|
A|-------------------------------------------|
E|-------------------------------------------|

e|-10-10-10-10-10-10-10-10-10-10-10-10-10-10-10-10-----------|
B|-----------------------------------------------------------|
G|-----------------------------------------------------------|
D|-----------------------------------------------------------|
A|-----------------------------------------------------------|
E|-----------------------------------------------------------|

e|-11-11-11-11-11-11-11-11-11-11-11-11-11-11-11-11--13-|
B|-----------------------------------------------------|
G|-----------------------------------------------------|
D|-----------------------------------------------------|
A|-----------------------------------------------------|
E|-----------------------------------------------------|

e|-15-15-15-15-15-15-15-15-15-15-15-15-15-15-15-15-----------|
B|-----------------------------------------------------------|
G|-----------------------------------------------------------|
D|-----------------------------------------------------------|
A|-----------------------------------------------------------|
E|-----------------------------------------------------------|

e|-15h16p15h16p15h16p15h16p15h6p15h16-|
B|------------------------------------|
G|------------------------------------|
D|------------------------------------|
A|------------------------------------|
E|------------------------------------|


Bridge:
Cm Gm Fm Eb Cm Gm
Cause I'm not gi-ving up
Eb Bb Eb
Will self control
G/B
suffocate it to the bone?
Cm Gm Fm Eb Cm Gm
I'm my worst e--ne-my
Eb Bb Eb
Who can't be save
Ab G/B
I'm just his disgrace


Chorus 3:
Eb Fm Cm
Tear me open I believe
Ab Eb
God will set you up to bleed
Fm Cm
And no one can deceive
Ab
What is meant to be and
Eb Fm Cm
Bloody murder we will scream
Ab
God will set you up to
Eb G/B Cm G/B Ab(hold)
Tear me open


Outro: Piano
Cm Gm Ab Eb
These days are strange it's true
Gm
There's not a thing
Ab
that I would change
Eb Gm(hold)
No mistakes that I'd undo

Title Post: Lyric and Chord Sum41 - Screming Bloody Murder
Rating: 100% based on 99998 ratings. 5 user reviews.
Author: Syaiful A-

0 komentar:

Poskan Komentar