Lyric and Bass Tab The Brand New Heavies - You Are The Universe [OST Take Celebrity Out Indonesia]

Lyric, Kunci gitar, Chords Guitar, Kord Gitar, Bass Tab The Brand New Heavies - You Are The Universe [OST Take Celebrity Out Indonesia]:

Intro (not accurate)

G:|----------------15-------||
D:|-4/10-82---------15-----||
A:|----------11/13-----135-||
E:|-------------------------||

Intro/chorus

G:|-----------------|-----------------|-----------------|
D:|-----------------|-----------------|-----------------|
A:|-----------3-4---|-5---------------|-----------3-4---|
E:|-6-6-5-----------|-------1--0h1-1--|-6-6-5-----------|
B:|-----------------|---3-------------|-----------------|

G:|-----------------||
D:|---3-3h5-3-------||
A:|-5-----------3---||
E:|-----------------||
B:|-----------------||

Verse

G:|-----------------|-----------------|-----------------|
D:|-----------------|-----------------|-----------------|
A:|-----------------|-----------------|-------------3-4-|
E:|-6-----5h6-----5-|-6----x6x6-6/8-6-|-5----x5---------|
B:|-----------------|-----------------|-----------------|

G:|-----------------|-----------------|-----------------|
D:|-----------------|-----------------|-8-88------------|
A:|-5--5--x-5-5--3--|---------------8-|------8-8--------|
E:|-----------------|-6-----5h6-------|----------6-6/8-6|
B:|-----------------|-----------------|-----------------|

G:|-----------------|-----------------||
D:|-----------------|-----------------||
A:|-------------3-4-|-5--5---x-5------||
E:|-5-----x-5-------|------------5----||
B:|-----------------|--------------3--||

Bridge

G:|-----------------|-----------------|-----------------|
D:|-----------------|-----------------|-----------------|
A:|-----------------|-----------------|-----------------|
E:|-3-3-5-----------|-----------------|-3-3-5--5/125---|
B:|-----------------|---------3-------|-----------------|

G:|-----------------||
D:|-----------------||
A:|---3---4---5--3--||
E:|-6---6---6-------||
B:|-----------------||

Chorus

G:|-----------------|-----------------|-----------------|
D:|-----------------|-----------------|-----------------|
A:|------------3-4--|-5---------------|------------3-4--|
E:|-6---6---5-------|---5----1--0h1-1-|-6---6---5-------|
B:|---6-------------|-----3-----------|---6-------------|

G:|-----------------||
D:|---3-3h5--3------||
A:|-5-----------3---||
E:|-----------------||
B:|-----------------||

M8

G:|-----------------|-----------------|-----------------|
D:|-----------------|----------------3|----------101111/|
A:|-------------3-4-|-5---------------|-----------------|
E:|-66-x6--5-x5-----|---5-----1-x1-1--|66-x6-5-x5-------|
B:|-----------------|-----3-3---------|-----------------|

G:|----1010-12/14-10|--10---10--------|-----------------|
D:|1212-------------|0----0----0--10/-|12--12--11----12-|
A:|-----------------|-----------------|-----------------|
E:|-----------------|-----------------|-----------------|
B:|-----------------|-----------------|-----------------|

G:|9-10-9-----------|-----------------|-----------------||
D:|------12---------|-5--7--8---------|-----------------||
A:|---------10/12-10|---------8-------|--3-4-5----------||
E:|-----------------|-----------6-6-5-|5------5---1-----||
B:|-----------------|-----------------|--------33--5/12||

Title Post: Lyric and Bass Tab The Brand New Heavies - You Are The Universe [OST Take Celebrity Out Indonesia]
Rating: 100% based on 99998 ratings. 5 user reviews.
Author: Syaiful A-

0 komentar:

Poskan Komentar