Lyric and Chord Guitar The Red Jumpsuit Apparatus - Love Seat

Lyric, Chords Gitar, Kord Gitar The Red Jumpsuit Apparatus - Love Seat

Intro: C--Am-- x2


Bass Line:
C Am
G|--------------|--------------|
D|--------------|------------2-|
A|-3-3-3-3----3-|-0-0-0-0--0---| x2
E|----------3---|--------------|


Verse 1:
C Am
My love's like an arm chair
C
It's inclined to recline
Am C
And sweep you off of your feet
Am
My structure is perfect
C
There's no flaw in design
Am F
A decent buy for you
C G C
There's no rest for a luxury
F C G
There's no rest for me


Chorus:
C
Her eyes are watering
G/B
I said we're better
F
off this way Things change
G
Its happening everyday
C
He'll come and take my place
G/B
And show you things that
F
I just couldn't face
We'll sit and sing a song
G
Of what we did wrong


Bass Line: while doing Chorus
C G/B F G
G|------------0h2p0-|----0---------------|---------|---------|
D|----2-------------|------------5-3p2h3-|---------|---------|
A|-3-----3----------|-2-----2--2---------|---------|---------| x2
E|----------3-------|--------------------|-1--1--1-|-3--3--3-|


Verse 2:
C Am
Now that I'm used up
C
And my arms start to fade
Am C
You can pay to upgrade
Am
Or you can replace me
C
Finalize my demise
Am F
A new surprise for you
C G C
There's no rest for a luxury
F C G
There's no rest for me


Guitar 2: in "upgrade"
e|-------8--------|
B|-5---5----5h6p5-|
G|----------------|
D|----------------| x4
A|----------------|
E|----------------|


(Repeat Chorus)


Bridge:
Am
Don't tell me the
C
worst is over now
F
Don't tell me what I
can see with my eyes
Am
Don't tell me the
C
worst is over now
F
Bend my will again
G
Then mend it straight


Guitar 2: while doing Bridge
e|-----3---1-0---3-1-0-------|
B|-1-1---1-----1-------3-1---|
G|-------------------------0-|
D|---------------------------|
A|---------------------------|
E|---------------------------|


(Repeat chorus)


Outro:
C
And maybe Ill regret you
G/B
And maybe Ill regret you
F
And maybe Ill regret you
G
Its all in my mind
All in my mind
(Repeat)


Bass Line: while doing outro
C G/B F
G
G|-----------------|-----------------|-----------------|-------7-9-7-5-7-|
D|---------5-3-2-3-|---------5-3-2-3-|---------3-3-3-3-|-----5-----------|
A|-3-3-3-3---------|-2-2-2-2---------|-------3---------|---5-------------| x2
E|-----------------|-----------------|-1-1-1-----------|-3---------------|


End on C


Title Post: Lyric and Chord Guitar The Red Jumpsuit Apparatus - Love Seat
Rating: 100% based on 99998 ratings. 5 user reviews.
Author: Syaiful A-

0 komentar:

Poskan Komentar