Lyric and Chord Guitar Blink 182 - Mutt

Lirik, Kunci gitar, Chords Gitar, Kord Gitar Blink 182 - Mutt :

Intro: A--D--, A--Bm-C#m-D--F#m-E--|
A--Bm-C#m-D--E--D------------------|

Guitar 2:
e|-----------------------|
B|---2----2-----2-----2--|
G|-2----2-----2-----2----|
D|----2-----2-----2------| x4
A|-----------------------|
E|-----------------------|

Bass:
A D A Bm C#m
F#m E
G|-----9-|-------|---------|-----|-----|---------|-----|-----|
D|-7-7---|-----7-|---------|-----|-----|---------|-4-4-|-2-2-|
A|-------|-5-5---|-0-0-0-0-|-2-2-|-4-4-|-5-5-5-5-|-----|-----|
E|-------|-------|---------|-----|-----|---------|-----|-----|
x8 x8 x3 x3

A Bm C#m D E D
G|---------|-----|-----|---------|---------|---------|
D|---------|-----|-----|---------|-2-2-2-2-|-0-0-0-0-|
A|-0-0-0-0-|-2-2-|-4-4-|-5-5-5-5-|---------|---------|
E|---------|-----|-----|---------|---------|---------|
x3 x3


Verse 1:
A F#m
He pauses shaving and he tells
E
himself that he is the bomb
A
She has her curlers set her
F#m E
credit cards are paying the funds
A
He's not that old I've been
F#m E
told a strong sexual goal
A
She goes out every day
F#m E
She goes every way


Refrain:
D
oh yeah They don't
E
even care at all


Bass Solo: A--Bm-D-C#m x2

Bass:
A Bm D C#m
G|------------|------------|---|----|
D|------2h4p2-|------------|---|----|
A|-0--0-------|-2--2--2--2-|-5-|-4--|
E|------------|------------|---|----|
x2


Chorus:
A
She's open
Bm D
waiting for more
C#m A
And I know he's
Bm D
only looking to score
C#m A
And it is way
too unhealthy
Bm D C#m
Often they've typically
A
Been starved for
Bm D C#m
attention before


Interlude: A--Bm-C#m-D--F#m-E--|
A--Bm-C#m-D--E--D--------------|


Verse 2:
A F#m
She smokes a dozen and he doesn't
E
seem to notice the smell
A
He took the seat off his old
F#m E
bike because the way that it
A
felt He wants to bone this I
F#m E
know she is ready to blow
A
They go out every night
F#m E
His pants are super tight


(Repeat Refrain, Bass Solo and Chorus)


Interlude: A--Bm--D-C#m x4

Guitar 2:
A Bm D C#m
e|-----|-----|-----|-----|
B|-----|-----|-----|-----|
G|-2-2-|-4-4-|-7-7-|-6-6-|
D|-2-2-|-4-4-|-7-7-|-6-6-| x2
A|-0-0-|-2-2-|-5-5-|-4-4-|
E|-----|-----|-----|-----|

e|-----------------------|
B|---2----2-----2-----2--|
G|-2----2-----2-----2----|
D|----2-----2-----2------| x2
A|-----------------------|
E|-----------------------|

Bass:
A Bm D C#m
G|------------|------------|---|----|
D|------2h4p2-|------------|---|----|
A|-0--0-------|-2--2--2--2-|-5-|-4--|
E|------------|------------|---|----|
x2


(Repeat Chorus)


Outro: A--Bm--D-C#m x2, A(hold)

Title Post: Lyric and Chord Guitar Blink 182 - Mutt
Rating: 100% based on 99998 ratings. 5 user reviews.
Author: Syaiful A-

0 komentar:

Poskan Komentar