Tab Guitar Papa Roach - The Enemy

Lyric, Tab, Chords guitar, Chords Gitar, Kord Gitar Papa Roach - The Enemy:

INTRO (2x)

E||--------------------------------|-------------------------------|
B||--------------------------------|-------------------------------|
G||*-------------------------------|-------------------------------|
D||*--6--6--6-6-6-6-------------3--|--3--6-6-6-6-------------6--6--|
A||---6--6----------6-6-6-3-3-3-3--|--3----------6-6-6-8-8-8-6--6--|
E||---4--4----------------------1--|--1----------------------4--4--|

-------------------------------|-------------------|
-------------------------------|-------------------|
-------------------------------|-------------------|
--6-6-6-6-------------3--3-----|-----8--8----------|
----------6-6-6-3-3-3-3--3-----|-----8--8----------|
----------------------1--1--x--|--x--6--6--x--x----|


VERSO
|-------------------------|
|-------------------------|
|--6--6-----6--6-----8--8-|
|--6--6-----6--6-----8--8-|
|--4--4--x--4--4--x--6--6-|


----------------------|---------------|
----------------------|---------------|
----------------6--6--|-8-6-6---8-6---|
----6--6--------6--6--|-8-6-6---8-6---|
----6--6--------4--4--|-6-4-4---6-4---|
-x--4--4--x--x--------|---------------|

|----------------|
|----------------|
|-6--6-----8--8--|
|-6--6-----8--8--|
|-4--4--x--6--6--|

Pre-chorus

|---|
|---|
|---|
|-3-|
|-3-|
|-1-| - 14x


Chorus
|-----------------------------------------------------------|
|-----------------------------------------------------------|
|-------------------------------6-6-6-6-8-8-8-8-------------|(2x)
|-8-8--8-8--3-3--3-3--6-6--6-6--6-6-6-6-8-8-8-8-------------|
|-8-8--8-8--3-3--3-3--6-6--6-6--4-4-4-4-6-6-6-6-------------|
|-6-6--6-6--1-1--1-1--4-4--4--------------------------------|

Title Post: Tab Guitar Papa Roach - The Enemy
Rating: 100% based on 99998 ratings. 5 user reviews.
Author: Syaiful A-

0 komentar:

Poskan Komentar