Lirik dan Kunci Gitar Superman Is Dead - Mengintip

Lirik, Tab, Kunci gitar, Chords Gitar, Kord Gitar Superman Is Dead - Mengintip

e|----------------------------------------------------------------------|
B|----------------------------------------------------------------------|
G|----7-6--------------7-6--------------7-6--------------7-6------------|
D|--7-----9-9-9-9-9--7-----9-9-9-9-9--7-----9-9-9-9-9--7-----7-7-7-7-7--|
A|----------------------------------------------------------------------|
E|----------------------------------------------------------------------|

e|----------------------------------------------------------------------|
B|----------------------------------------------------------------------|
G|----7-6--------------7-6--------------7-6--------------7-6------------|
D|--7-----9-9-9-9-9--7-----9-9-9-9-9--7-----9-9-9-9-9--7-----7-7-7-7-7--|
A|----------------------------------------------------------------------|
E|----------------------------------------------------------------------|

e|-----------------------------------------------------------------------------------------|
B|-----------------------------------------------------------------------------------------|
G|----7-6-----------6-6-6-6-6-7-7-7-7-9-9-9-9-7-7-7-6-6-6-6-6-6-6-7-7-7-7-6-6-6-6-7-7-7-7--|
D|--7-----9-9-9-9-9------------------------------------------------------------------------|
A|-----------------------------------------------------------------------------------------|
E|-----------------------------------------------------------------------------------------|

e|-------------------------------------------------------------------------|
B|-------------------------------------------------------------------------|
G|----------6-6-6-6-7-7-7-9-9-9-9-7-7-7-7-6-6-6-6-6-6-6-7-7-7-7-6-6-6-6-7--|
D|--9-9-9-9----------------------------------------------------------------|
A|-------------------------------------------------------------------------|
E|-------------------------------------------------------------------------|

B5 A5 B5 3x
B5

B5 D5
Ku pergi bersama, ke pinggir sungai
B5 D5 B5 D5
Bermaksud pengen mandi, tak sengaja kujumpai
A5 G5
Seorang gadis mandi
B5 D5
Kucari tempat, tuk sembunyi
B5 D5
Kuharap, tak diketahui
B5 D5 A5 G5
Pengen mandipun tak jadi, nafsupun tak terkendali
A5 G5
nafsupun tak terkendali

A5 B5
Mengintip!
A5 B5
Mengintip!
A5 B5
Mengintip!

D5 A5

B5 D5
Badanku gemetar, tak karuan
B5 D5 B5 D5
Mataku jelalatan, tanganpun tak bisa diam
A5 G5
Adik pun kebingungan

A5 B5
Mengintip!
A5 B5
Mengintip!
A5 B5
Mengintip!

D5 A5

G5 D5 A5 D5
Tak peduli dengan orang, dipergokin ngintip orang
G5 D5 A5
Habis dia mandi tlanjang
G5 D5 A5 D5
Tak peduli dengan teman, dipergokin ngintip orang
G5 D5 A5
Habis dia mandi tlanjang

e|------------------|
B|------------------|
G|------------------| 4x
D|--4h5-4----7-7-7--|
A|--------5--7-7-7--|
E|-----------5-5-5--|

Title Post: Lirik dan Kunci Gitar Superman Is Dead - Mengintip
Rating: 100% based on 99998 ratings. 5 user reviews.
Author: Syaiful A-

0 komentar:

Poskan Komentar