Lirik dan Kunci Gitar Laruku [L Arc En Ciel] - Honey

Lirik, Kunci gitar, Chords Gitar, Kord Gitar Laruku [L Arc En Ciel] - Honey :

Bbsus2           F
zutto nagameteita
Bbsus2 F
tooku osanai koro kara
Bbsus2 F
ima mo iroaseta sono keshiki wa
G A Asus2
masshiro na kabe ni kazatte aru

Tab Chorus (Play in background)

e |---------- 5-3------------------------------------------------------5--------------------6-5------|
B |--------3------5-3-1-1-1-3-3-3-1-------------------------3-2------5-3-6h4h3-3h4h6------6-5--------|
G |-3-3-5-----------------------------3-2-3-5-2-----3-3-3-5-----2---------------------------------5--|
D |-------------------------------------------------3------------------------------------------------|
A |--------------------------------------------------------------------------------------------------|
E |--------------------------------------------------------------------------------------------------|

e |-----------5-3---------12---10--13-12-10-8-6--|
B |--------3------5-3/10----10--10---------------|
G |-3-3-5----------------------------------------|
D |----------------------------------------------|
A |----------------------------------------------|
E |----------------------------------------------|

The chorus' chord goes :

Gm C F D#m
kawaita kaze o karamase
Gm C Am D
anata o tsureteku nosa
Gm C Am D
honey so sweet kagirinai yume o
Gm C
kono ryoote ni tsukande

Solo : Gm-C-F-G

Verse 2
korokatte yuku michi de
sukoshi IKARETA dakesa
fukai itami wa torenaikedo
sonna sabishii me o shinaide

Reff
kawaita kaze o karamase
anata o tsureteku nosa
honey so sweet shinjite hoshii
kono sekai ga uso demo

Gm-C-F-G Gm-C-F-G
I want to fly, waiting for sunrise

Solo : Gm C F D#m Gm C Am D Gm C Am D Gm C

Bbsus2 F Bbsus2 F
itsudemo itsudemo
Bbsus2 F G A Asus2
amai amai egao ni toketeitai

ummei ga boku o tsukande
atari wa kasundeku kedo
fusaganaide kikoeru daroo
ano basho ga yonderu
kawaita kaze o karamase
anata o tsureteku no sa
honey so sweet kagirinai yume o
kono ryoote ni tsukande

I want to fly, waiting for sunrise
I want to fly, waiting for sunrise

Title Post: Lirik dan Kunci Gitar Laruku [L Arc En Ciel] - Honey
Rating: 100% based on 99998 ratings. 5 user reviews.
Author: Syaiful A-

0 komentar:

Poskan Komentar